ISO-10303-21;
HEADER;
FILE_DESCRIPTION (( 'STEP AP214' ),
    '1' );
FILE_NAME ('462160_APP-AVK 16_Grey.STP',
    '2013-11-14T13:07:50',
    ( 'arge' ),
    ( 'Microsoft' ),
    'SwSTEP 2.0',
    'SolidWorks 2013',
    '' );
FILE_SCHEMA (( 'AUTOMOTIVE_DESIGN' ));
ENDSEC;

DATA;
#1 = CIRCLE ( 'NONE', #294, 0.1999999999999999800 ) ;
#2 = FACE_OUTER_BOUND ( 'NONE', #255, .T. ) ;
#3 = CIRCLE ( 'NONE', #295, 0.1999999999999987900 ) ;
#4 = ORIENTED_EDGE ( 'NONE', *, *, #316, .F. ) ;
#5 = CIRCLE ( 'NONE', #297, 0.1999999999999987900 ) ;
#6 = ORIENTED_EDGE ( 'NONE', *, *, #318, .T. ) ;
#7 = VERTEX_POINT ( 'NONE', #225 ) ;
#8 = VECTOR ( 'NONE', #68, 1000.000000000000000 ) ;
#9 = EDGE_LOOP ( 'NONE', ( #269, #241, #230, #324 ) ) ;
#10 = ORIENTED_EDGE ( 'NONE', *, *, #322, .F. ) ;
#11 = UNCERTAINTY_MEASURE_WITH_UNIT (LENGTH_MEASURE( 1.000000000000000100E-005 ), #53, 'distance_accuracy_value', 'NONE');
#12 = VECTOR ( 'NONE', #232, 1000.000000000000000 ) ;
#13 = VECTOR ( 'NONE', #78, 1000.000000000000100 ) ;
#14 = CIRCLE ( 'NONE', #293, 0.1999999999999999800 ) ;
#15 = SHAPE_DEFINITION_REPRESENTATION ( #193, #198 ) ;
#16 = APPLICATION_PROTOCOL_DEFINITION ( 'draft international standard', 'automotive_design', 1998, #17 ) ;
#17 = APPLICATION_CONTEXT ( 'automotive_design' ) ;
#18 = PRODUCT_CONTEXT ( 'NONE', #34, 'mechanical' ) ;
#19 = DIRECTION ( 'NONE',  ( 1.000000000000000000, 0.0000000000000000000, 0.0000000000000000000 ) ) ;
#20 = DIRECTION ( 'NONE',  ( 0.0000000000000000000, 0.0000000000000000000, 1.000000000000000000 ) ) ;
#21 = VERTEX_POINT ( 'NONE', #231 ) ;
#22 = CARTESIAN_POINT ( 'NONE',  ( 0.0000000000000000000, 0.0000000000000000000, 0.0000000000000000000 ) ) ;
#23 = ORIENTED_EDGE ( 'NONE', *, *, #331, .F. ) ;
#24 =( NAMED_UNIT ( * ) SI_UNIT ( $, .STERADIAN. ) SOLID_ANGLE_UNIT ( ) );
#25 = SURFACE_STYLE_FILL_AREA ( #52 ) ;
#26 =( NAMED_UNIT ( * ) PLANE_ANGLE_UNIT ( ) SI_UNIT ( $, .RADIAN. ) );
#27 =( LENGTH_UNIT ( ) NAMED_UNIT ( * ) SI_UNIT ( .MILLI., .METRE. ) );
#28 = SURFACE_STYLE_USAGE ( .BOTH. , #29 ) ;
#29 = SURFACE_SIDE_STYLE ('',( #229 ) ) ;
#30 = FACE_OUTER_BOUND ( 'NONE', #256, .T. ) ;
#31 = VERTEX_POINT ( 'NONE', #213 ) ;
#32 = FILL_AREA_STYLE ('',( #61 ) ) ;
#33 = EDGE_LOOP ( 'NONE', ( #10, #37, #54, #79 ) ) ;
#34 = APPLICATION_CONTEXT ( 'automotive_design' ) ;
#35 = APPLICATION_PROTOCOL_DEFINITION ( 'draft international standard', 'automotive_design', 1998, #34 ) ;
#36 = ORIENTED_EDGE ( 'NONE', *, *, #331, .T. ) ;
#37 = ORIENTED_EDGE ( 'NONE', *, *, #323, .T. ) ;
#38 =( NAMED_UNIT ( * ) SI_UNIT ( $, .STERADIAN. ) SOLID_ANGLE_UNIT ( ) );
#39 =( NAMED_UNIT ( * ) PLANE_ANGLE_UNIT ( ) SI_UNIT ( $, .RADIAN. ) );
#40 = ORIENTED_EDGE ( 'NONE', *, *, #319, .T. ) ;
#41 = LINE ( 'NONE', #74, #261 ) ;
#42 = LINE ( 'NONE', #121, #238 ) ;
#43 = VERTEX_POINT ( 'NONE', #308 ) ;
#44 =( NAMED_UNIT ( * ) SI_UNIT ( $, .STERADIAN. ) SOLID_ANGLE_UNIT ( ) );
#45 =( NAMED_UNIT ( * ) PLANE_ANGLE_UNIT ( ) SI_UNIT ( $, .RADIAN. ) );
#46 = VECTOR ( 'NONE', #104, 1000.000000000000000 ) ;
#47 =( LENGTH_UNIT ( ) NAMED_UNIT ( * ) SI_UNIT ( .MILLI., .METRE. ) );
#48 = VECTOR ( 'NONE', #235, 1000.000000000000000 ) ;
#49 = LINE ( 'NONE', #91, #274 ) ;
#50 = SURFACE_STYLE_USAGE ( .BOTH. , #51 ) ;
#51 = SURFACE_SIDE_STYLE ('',( #25 ) ) ;
#52 = FILL_AREA_STYLE ('',( #62 ) ) ;
#53 =( LENGTH_UNIT ( ) NAMED_UNIT ( * ) SI_UNIT ( .MILLI., .METRE. ) );
#54 = ORIENTED_EDGE ( 'NONE', *, *, #325, .T. ) ;
#55 = DIRECTION ( 'NONE',  ( -1.000000000000000000, 0.0000000000000000000, 0.0000000000000000000 ) ) ;
#56 = DIRECTION ( 'NONE',  ( -0.0000000000000000000, -0.0000000000000000000, -1.000000000000000000 ) ) ;
#57 = ORIENTED_EDGE ( 'NONE', *, *, #320, .T. ) ;
#58 = VERTEX_POINT ( 'NONE', #210 ) ;
#59 = CARTESIAN_POINT ( 'NONE',  ( 2.954450920022999600E-015, -5.421010862427522200E-016, 1.500000000000000000 ) ) ;
#60 = ORIENTED_EDGE ( 'NONE', *, *, #335, .F. ) ;
#61 = FILL_AREA_STYLE_COLOUR ( '', #254 ) ;
#62 = FILL_AREA_STYLE_COLOUR ( '', #122 ) ;
#63 = DIRECTION ( 'NONE',  ( -1.000000000000000000, 0.0000000000000000000, 0.0000000000000000000 ) ) ;
#64 = DIRECTION ( 'NONE',  ( -0.0000000000000000000, -0.0000000000000000000, -1.000000000000000000 ) ) ;
#65 = VECTOR ( 'NONE', #242, 1000.000000000000000 ) ;
#66 = FACE_OUTER_BOUND ( 'NONE', #9, .T. ) ;
#67 = CARTESIAN_POINT ( 'NONE',  ( 2.954450920022999600E-015, -5.421010862427522200E-016, 0.0000000000000000000 ) ) ;
#68 = DIRECTION ( 'NONE',  ( 0.0000000000000000000, -0.0000000000000000000, -1.000000000000000000 ) ) ;
#69 = CARTESIAN_POINT ( 'NONE',  ( -0.1999999999999970700, 8.944667923005411600E-016, 1.500000000000000000 ) ) ;
#70 = VECTOR ( 'NONE', #136, 1000.000000000000000 ) ;
#71 = DIRECTION ( 'NONE',  ( -1.000000000000000000, 0.0000000000000000000, -0.0000000000000000000 ) ) ;
#72 = VERTEX_POINT ( 'NONE', #286 ) ;
#73 = DIRECTION ( 'NONE',  ( -0.0000000000000000000, -1.000000000000000000, -0.0000000000000000000 ) ) ;
#74 = CARTESIAN_POINT ( 'NONE',  ( 49.19999999999558300, -5.421010862427522200E-016, 1.500000000000000000 ) ) ;
#75 = LINE ( 'NONE', #92, #157 ) ;
#76 = LINE ( 'NONE', #109, #204 ) ;
#77 = DIRECTION ( 'NONE',  ( -0.0000000000000000000, -0.0000000000000000000, -1.000000000000000000 ) ) ;
#78 = DIRECTION ( 'NONE',  ( 0.7071067811865474600, -0.7071067811865474600, 0.0000000000000000000 ) ) ;
#79 = ORIENTED_EDGE ( 'NONE', *, *, #317, .F. ) ;
#80 = LINE ( 'NONE', #90, #246 ) ;
#81 = CARTESIAN_POINT ( 'NONE',  ( 44.19999999999602400, 44.80000000000010400, 1.500000000000000000 ) ) ;
#82 = LINE ( 'NONE', #97, #277 ) ;
#83 = EDGE_LOOP ( 'NONE', ( #149, #84, #226, #267 ) ) ;
#84 = ORIENTED_EDGE ( 'NONE', *, *, #335, .T. ) ;
#85 = ORIENTED_EDGE ( 'NONE', *, *, #314, .T. ) ;
#86 = VECTOR ( 'NONE', #101, 1000.000000000000000 ) ;
#87 = DIRECTION ( 'NONE',  ( -0.0000000000000000000, -0.0000000000000000000, -1.000000000000000000 ) ) ;
#88 = ORIENTED_EDGE ( 'NONE', *, *, #325, .F. ) ;
#89 = DIRECTION ( 'NONE',  ( 1.000000000000000000, -0.0000000000000000000, 0.0000000000000000000 ) ) ;
#90 = CARTESIAN_POINT ( 'NONE',  ( 2.954450920022999600E-015, -0.1999999999999243200, 1.500000000000000000 ) ) ;
#91 = CARTESIAN_POINT ( 'NONE',  ( 2.954450920022999600E-015, 44.80000000000010400, 1.500000000000000000 ) ) ;
#92 = CARTESIAN_POINT ( 'NONE',  ( 49.19999999999558300, 39.80000000000054400, 1.500000000000000000 ) ) ;
#93 = VERTEX_POINT ( 'NONE', #219 ) ;
#94 = LINE ( 'NONE', #119, #249 ) ;
#95 = DIRECTION ( 'NONE',  ( 0.7071067811865474600, 0.7071067811865476800, 0.0000000000000000000 ) ) ;
#96 = CARTESIAN_POINT ( 'NONE',  ( 44.19999999999602400, 44.80000000000010400, 1.500000000000000000 ) ) ;
#97 = CARTESIAN_POINT ( 'NONE',  ( -0.1999999999999953200, 39.80000000000006800, 1.500000000000000000 ) ) ;
#98 = EDGE_LOOP ( 'NONE', ( #144, #174, #223, #205 ) ) ;
#99 = DIRECTION ( 'NONE',  ( 0.0000000000000000000, -0.0000000000000000000, -1.000000000000000000 ) ) ;
#100 = ORIENTED_EDGE ( 'NONE', *, *, #326, .T. ) ;
#101 = DIRECTION ( 'NONE',  ( 0.0000000000000000000, 1.000000000000000000, 0.0000000000000000000 ) ) ;
#102 = CARTESIAN_POINT ( 'NONE',  ( 4.800000000000035300, 44.80000000000010400, 1.500000000000000000 ) ) ;
#103 = CARTESIAN_POINT ( 'NONE',  ( -0.1999999999999970700, -5.421010862427522200E-016, 1.500000000000000000 ) ) ;
#104 = DIRECTION ( 'NONE',  ( -0.0000000000000000000, -1.000000000000000000, 0.0000000000000000000 ) ) ;
#105 = ORIENTED_EDGE ( 'NONE', *, *, #330, .F. ) ;
#106 = LINE ( 'NONE', #237, #263 ) ;
#107 = CARTESIAN_POINT ( 'NONE',  ( 49.19999999999558300, 39.80000000000054400, 0.0000000000000000000 ) ) ;
#108 = DIRECTION ( 'NONE',  ( 0.7071067811865474600, -0.7071067811865474600, 0.0000000000000000000 ) ) ;
#109 = CARTESIAN_POINT ( 'NONE',  ( 44.19999999999602400, 44.80000000000010400, -8.673617379884035500E-016 ) ) ;
#110 = DIRECTION ( 'NONE',  ( -1.000000000000000000, -1.554945054518892100E-015, 0.0000000000000000000 ) ) ;
#111 = LINE ( 'NONE', #112, #248 ) ;
#112 = CARTESIAN_POINT ( 'NONE',  ( 48.99999999999557300, -0.1999999999999243200, 0.0000000000000000000 ) ) ;
#113 = ORIENTED_EDGE ( 'NONE', *, *, #316, .T. ) ;
#114 = DIRECTION ( 'NONE',  ( -1.000000000000000000, 0.0000000000000000000, 0.0000000000000000000 ) ) ;
#115 = FACE_OUTER_BOUND ( 'NONE', #271, .T. ) ;
#116 = DIRECTION ( 'NONE',  ( -0.0000000000000000000, -0.0000000000000000000, -1.000000000000000000 ) ) ;
#117 = LINE ( 'NONE', #102, #12 ) ;
#118 = CARTESIAN_POINT ( 'NONE',  ( 48.99999999999557300, 7.565020658517607200E-014, 0.0000000000000000000 ) ) ;
#119 = CARTESIAN_POINT ( 'NONE',  ( 49.19999999999558300, 7.632783294297951200E-014, 1.500000000000000000 ) ) ;
#120 = CARTESIAN_POINT ( 'NONE',  ( -0.1999999999999953200, 39.80000000000006800, 1.500000000000000000 ) ) ;
#121 = CARTESIAN_POINT ( 'NONE',  ( -0.1999999999999970700, 8.944667923005411600E-016, 0.0000000000000000000 ) ) ;
#122 = COLOUR_RGB ( '',0.4941176470588235500, 0.4941176470588235500, 0.4941176470588235500 ) ;
#123 = EDGE_LOOP ( 'NONE', ( #88, #100, #247, #268 ) ) ;
#124 = VERTEX_POINT ( 'NONE', #206 ) ;
#125 = ORIENTED_EDGE ( 'NONE', *, *, #317, .T. ) ;
#126 = DIRECTION ( 'NONE',  ( -1.000000000000000000, 0.0000000000000000000, 0.0000000000000000000 ) ) ;
#127 = DIRECTION ( 'NONE',  ( -0.0000000000000000000, -0.0000000000000000000, -1.000000000000000000 ) ) ;
#128 = CARTESIAN_POINT ( 'NONE',  ( 48.99999999999557300, 7.565020658517607200E-014, 1.500000000000000000 ) ) ;
#129 = ORIENTED_EDGE ( 'NONE', *, *, #321, .T. ) ;
#130 = CARTESIAN_POINT ( 'NONE',  ( 48.99999999999557300, -0.1999999999999243200, 1.500000000000000000 ) ) ;
#131 = DIRECTION ( 'NONE',  ( 0.0000000000000000000, 0.0000000000000000000, 1.000000000000000000 ) ) ;
#132 = LINE ( 'NONE', #303, #65 ) ;
#133 = CARTESIAN_POINT ( 'NONE',  ( 49.19999999999558300, 7.598901976407779200E-014, 0.0000000000000000000 ) ) ;
#134 = PRODUCT ( '462160_APP-AVK 16_Grey', '462160_APP-AVK 16_Grey', '', ( #18 ) ) ;
#135 = CARTESIAN_POINT ( 'NONE',  ( 48.99999999999557300, -0.1999999999999243200, 1.500000000000000000 ) ) ;
#136 = DIRECTION ( 'NONE',  ( -0.0000000000000000000, -0.0000000000000000000, -1.000000000000000000 ) ) ;
#137 = CARTESIAN_POINT ( 'NONE',  ( 5.102166917417003200E-015, -0.2000000000000005100, 0.0000000000000000000 ) ) ;
#138 = CARTESIAN_POINT ( 'NONE',  ( 4.800000000000036200, 44.80000000000009700, 1.500000000000000200 ) ) ;
#139 = FACE_OUTER_BOUND ( 'NONE', #98, .T. ) ;
#140 = VERTEX_POINT ( 'NONE', #207 ) ;
#141 = DIRECTION ( 'NONE',  ( -1.000000000000000000, -1.554945054518892100E-015, 0.0000000000000000000 ) ) ;
#142 = DIRECTION ( 'NONE',  ( -1.554945054518892100E-015, 1.000000000000000000, 0.0000000000000000000 ) ) ;
#143 = CARTESIAN_POINT ( 'NONE',  ( 4.946672411965114000E-015, -0.1999999999999624000, 1.500000000000000000 ) ) ;
#144 = ORIENTED_EDGE ( 'NONE', *, *, #328, .F. ) ;
#145 = CARTESIAN_POINT ( 'NONE',  ( -0.1999999999999980100, 39.80000000000006100, 1.500000000000000200 ) ) ;
#146 = PRODUCT_DEFINITION_CONTEXT ( 'detailed design', #17, 'design' ) ;
#147 = DIRECTION ( 'NONE',  ( -1.000000000000000000, 0.0000000000000000000, -0.0000000000000000000 ) ) ;
#148 = DIRECTION ( 'NONE',  ( 0.0000000000000000000, 0.0000000000000000000, -1.000000000000000000 ) ) ;
#149 = ORIENTED_EDGE ( 'NONE', *, *, #334, .T. ) ;
#150 = CARTESIAN_POINT ( 'NONE',  ( 48.99999999999557300, -0.1999999999999243200, 1.500000000000000000 ) ) ;
#151 = ORIENTED_EDGE ( 'NONE', *, *, #321, .F. ) ;
#152 = ORIENTED_EDGE ( 'NONE', *, *, #326, .F. ) ;
#153 = PLANE ( 'NONE',  #296 ) ;
#154 = DIRECTION ( 'NONE',  ( 0.7071067811865474600, 0.7071067811865476800, 0.0000000000000000000 ) ) ;
#155 = DIRECTION ( 'NONE',  ( 0.7071067811865476800, -0.7071067811865474600, 0.0000000000000000000 ) ) ;
#156 = CARTESIAN_POINT ( 'NONE',  ( 2.954450920022999600E-015, -5.421010862427522200E-016, 1.500000000000000000 ) ) ;
#157 = VECTOR ( 'NONE', #77, 1000.000000000000000 ) ;
#158 = ORIENTED_EDGE ( 'NONE', *, *, #322, .T. ) ;
#159 = PLANE ( 'NONE',  #298 ) ;
#160 = VERTEX_POINT ( 'NONE', #203 ) ;
#161 = DIRECTION ( 'NONE',  ( 0.0000000000000000000, -0.0000000000000000000, -1.000000000000000000 ) ) ;
#162 = DIRECTION ( 'NONE',  ( 0.0000000000000000000, -1.000000000000000000, 0.0000000000000000000 ) ) ;
#163 = CARTESIAN_POINT ( 'NONE',  ( -0.1999999999999953200, 39.80000000000006800, 1.500000000000000000 ) ) ;
#164 = CYLINDRICAL_SURFACE ( 'NONE', #305, 0.1999999999999999800 ) ;
#165 = ORIENTED_EDGE ( 'NONE', *, *, #329, .F. ) ;
#166 = PLANE ( 'NONE',  #299 ) ;
#167 = LINE ( 'NONE', #103, #86 ) ;
#168 = DIRECTION ( 'NONE',  ( 0.7071067811865474600, -0.7071067811865474600, 0.0000000000000000000 ) ) ;
#169 = DIRECTION ( 'NONE',  ( -0.7071067811865475700, -0.7071067811865475700, 0.0000000000000000000 ) ) ;
#170 = PLANE ( 'NONE',  #300 ) ;
#171 = ORIENTED_EDGE ( 'NONE', *, *, #312, .T. ) ;
#172 = DIRECTION ( 'NONE',  ( 0.0000000000000000000, 0.0000000000000000000, 1.000000000000000000 ) ) ;
#173 = LINE ( 'NONE', #107, #46 ) ;
#174 = ORIENTED_EDGE ( 'NONE', *, *, #329, .T. ) ;
#175 = DIRECTION ( 'NONE',  ( -1.000000000000000000, 0.0000000000000000000, 0.0000000000000000000 ) ) ;
#176 = FACE_OUTER_BOUND ( 'NONE', #83, .T. ) ;
#177 = CARTESIAN_POINT ( 'NONE',  ( 44.19999999999602400, 44.80000000000010400, 1.500000000000000000 ) ) ;
#178 = PLANE ( 'NONE',  #301 ) ;
#179 = DIRECTION ( 'NONE',  ( 4.358601698434180900E-017, 1.000000000000000000, 0.0000000000000000000 ) ) ;
#180 = DIRECTION ( 'NONE',  ( 1.000000000000000000, -4.358601698434180900E-017, 0.0000000000000000000 ) ) ;
#181 = CARTESIAN_POINT ( 'NONE',  ( 49.19999999999558300, 39.80000000000054400, 1.500000000000000000 ) ) ;
#182 = PLANE ( 'NONE',  #304 ) ;
#183 = PLANE ( 'NONE',  #302 ) ;
#184 = CYLINDRICAL_SURFACE ( 'NONE', #307, 0.1999999999999987900 ) ;
#185 = CARTESIAN_POINT ( 'NONE',  ( -0.1999999999999970700, 8.944667923005411600E-016, 1.500000000000000000 ) ) ;
#186 = EDGE_LOOP ( 'NONE', ( #171, #85, #309, #113, #125, #6, #40, #57 ) ) ;
#187 = CARTESIAN_POINT ( 'NONE',  ( 2.954450920022999600E-015, -5.421010862427522200E-016, 1.500000000000000000 ) ) ;
#188 = DIRECTION ( 'NONE',  ( -1.000000000000000000, 0.0000000000000000000, -0.0000000000000000000 ) ) ;
#189 = DIRECTION ( 'NONE',  ( 0.0000000000000000000, 0.0000000000000000000, -1.000000000000000000 ) ) ;
#190 = FACE_OUTER_BOUND ( 'NONE', #33, .T. ) ;
#191 = DIRECTION ( 'NONE',  ( -1.000000000000000000, 0.0000000000000000000, 0.0000000000000000000 ) ) ;
#192 = PLANE ( 'NONE',  #306 ) ;
#193 = PRODUCT_DEFINITION_SHAPE ( 'NONE', 'NONE',  #278 ) ;
#194 = DIRECTION ( 'NONE',  ( -0.0000000000000000000, -0.0000000000000000000, -1.000000000000000000 ) ) ;
#195 = CARTESIAN_POINT ( 'NONE',  ( 48.99999999999557300, 7.565020658517607200E-014, 1.500000000000000000 ) ) ;
#196 = UNCERTAINTY_MEASURE_WITH_UNIT (LENGTH_MEASURE( 1.000000000000000100E-005 ), #27, 'distance_accuracy_value', 'NONE');
#197 = LINE ( 'NONE', #69, #8 ) ;
#198 = ADVANCED_BREP_SHAPE_REPRESENTATION ( '462160_APP-AVK 16_Grey', ( #337, #279 ), #285 ) ;
#199 = DIRECTION ( 'NONE',  ( -0.0000000000000000000, -0.0000000000000000000, -1.000000000000000000 ) ) ;
#200 = ORIENTED_EDGE ( 'NONE', *, *, #323, .F. ) ;
#201 = DIRECTION ( 'NONE',  ( -1.000000000000000000, 0.0000000000000000000, 0.0000000000000000000 ) ) ;
#202 = ORIENTED_EDGE ( 'NONE', *, *, #310, .F. ) ;
#203 = CARTESIAN_POINT ( 'NONE',  ( 49.19999999999558300, 7.598901976407779200E-014, 1.500000000000000000 ) ) ;
#204 = VECTOR ( 'NONE', #108, 1000.000000000000100 ) ;
#205 = ORIENTED_EDGE ( 'NONE', *, *, #319, .F. ) ;
#206 = CARTESIAN_POINT ( 'NONE',  ( -0.1999999999999970700, 1.761828530288944700E-016, 1.500000000000000000 ) ) ;
#207 = CARTESIAN_POINT ( 'NONE',  ( 48.99999999999557300, -0.1999999999999243200, 0.0000000000000000000 ) ) ;
#208 = ADVANCED_FACE ( 'NONE', ( #66 ), #184, .T. ) ;
#209 = ADVANCED_FACE ( 'NONE', ( #245 ), #192, .T. ) ;
#210 = CARTESIAN_POINT ( 'NONE',  ( 44.19999999999602400, 44.80000000000009700, -8.673617379884035500E-016 ) ) ;
#211 = ADVANCED_FACE ( 'NONE', ( #176 ), #164, .T. ) ;
#212 = ADVANCED_FACE ( 'NONE', ( #2 ), #182, .F. ) ;
#213 = CARTESIAN_POINT ( 'NONE',  ( 4.800000000000035300, 44.80000000000009700, 0.0000000000000000000 ) ) ;
#214 = ADVANCED_FACE ( 'NONE', ( #221 ), #183, .F. ) ;
#215 = ADVANCED_FACE ( 'NONE', ( #139 ), #178, .F. ) ;
#216 = ADVANCED_FACE ( 'NONE', ( #338 ), #170, .F. ) ;
#217 = ADVANCED_FACE ( 'NONE', ( #190 ), #166, .F. ) ;
#218 = ADVANCED_FACE ( 'NONE', ( #115 ), #159, .F. ) ;
#219 = CARTESIAN_POINT ( 'NONE',  ( 44.19999999999602400, 44.80000000000009700, 1.500000000000000200 ) ) ;
#220 = ADVANCED_FACE ( 'NONE', ( #30 ), #153, .F. ) ;
#221 = FACE_OUTER_BOUND ( 'NONE', #240, .T. ) ;
#222 = CARTESIAN_POINT ( 'NONE',  ( 2.954450920022999600E-015, -5.421010862427522200E-016, 0.0000000000000000000 ) ) ;
#223 = ORIENTED_EDGE ( 'NONE', *, *, #330, .T. ) ;
#224 = VERTEX_POINT ( 'NONE', #145 ) ;
#225 = CARTESIAN_POINT ( 'NONE',  ( -0.1999999999999970700, 1.805414547273286300E-016, 0.0000000000000000000 ) ) ;
#226 = ORIENTED_EDGE ( 'NONE', *, *, #333, .F. ) ;
#227 = VERTEX_POINT ( 'NONE', #137 ) ;
#228 = VERTEX_POINT ( 'NONE', #143 ) ;
#229 = SURFACE_STYLE_FILL_AREA ( #32 ) ;
#230 = ORIENTED_EDGE ( 'NONE', *, *, #312, .F. ) ;
#231 = CARTESIAN_POINT ( 'NONE',  ( 49.19999999999558300, 39.80000000000054400, -2.891205793294678300E-016 ) ) ;
#232 = DIRECTION ( 'NONE',  ( 0.0000000000000000000, -0.0000000000000000000, -1.000000000000000000 ) ) ;
#233 = CARTESIAN_POINT ( 'NONE',  ( 4.800000000000035300, 44.80000000000010400, 0.0000000000000000000 ) ) ;
#234 = DIRECTION ( 'NONE',  ( 0.7071067811865474600, 0.7071067811865476800, 0.0000000000000000000 ) ) ;
#235 = DIRECTION ( 'NONE',  ( 1.000000000000000000, 0.0000000000000000000, 0.0000000000000000000 ) ) ;
#236 = LINE ( 'NONE', #130, #70 ) ;
#237 = CARTESIAN_POINT ( 'NONE',  ( -0.1999999999999953200, 39.80000000000006800, 0.0000000000000000000 ) ) ;
#238 = VECTOR ( 'NONE', #239, 1000.000000000000000 ) ;
#239 = DIRECTION ( 'NONE',  ( 4.358601698434180900E-017, 1.000000000000000000, 0.0000000000000000000 ) ) ;
#240 = EDGE_LOOP ( 'NONE', ( #105, #36, #250, #251 ) ) ;
#241 = ORIENTED_EDGE ( 'NONE', *, *, #311, .T. ) ;
#242 = DIRECTION ( 'NONE',  ( 0.0000000000000000000, 0.0000000000000000000, 1.000000000000000000 ) ) ;
#243 = LINE ( 'NONE', #81, #13 ) ;
#244 = VERTEX_POINT ( 'NONE', #138 ) ;
#245 = FACE_OUTER_BOUND ( 'NONE', #186, .T. ) ;
#246 = VECTOR ( 'NONE', #71, 1000.000000000000000 ) ;
#247 = ORIENTED_EDGE ( 'NONE', *, *, #328, .T. ) ;
#248 = VECTOR ( 'NONE', #110, 1000.000000000000000 ) ;
#249 = VECTOR ( 'NONE', #131, 1000.000000000000000 ) ;
#250 = ORIENTED_EDGE ( 'NONE', *, *, #313, .F. ) ;
#251 = ORIENTED_EDGE ( 'NONE', *, *, #320, .F. ) ;
#252 = ORIENTED_EDGE ( 'NONE', *, *, #311, .F. ) ;
#253 = ORIENTED_EDGE ( 'NONE', *, *, #332, .T. ) ;
#254 = COLOUR_RGB ( '',0.4941176470588235500, 0.4941176470588235500, 0.4941176470588235500 ) ;
#255 = EDGE_LOOP ( 'NONE', ( #60, #129, #158, #4 ) ) ;
#256 = EDGE_LOOP ( 'NONE', ( #252, #253, #264, #265 ) ) ;
#257 = CLOSED_SHELL ( 'NONE', ( #218, #220, #214, #215, #216, #217, #212, #209, #208, #211 ) ) ;
#258 = VECTOR ( 'NONE', #87, 1000.000000000000000 ) ;
#259 = VERTEX_POINT ( 'NONE', #135 ) ;
#260 = LINE ( 'NONE', #120, #273 ) ;
#261 = VECTOR ( 'NONE', #73, 1000.000000000000000 ) ;
#262 = LINE ( 'NONE', #96, #258 ) ;
#263 = VECTOR ( 'NONE', #234, 1000.000000000000000 ) ;
#264 = ORIENTED_EDGE ( 'NONE', *, *, #315, .F. ) ;
#265 = ORIENTED_EDGE ( 'NONE', *, *, #314, .F. ) ;
#266 = LINE ( 'NONE', #233, #48 ) ;
#267 = ORIENTED_EDGE ( 'NONE', *, *, #315, .T. ) ;
#268 = ORIENTED_EDGE ( 'NONE', *, *, #318, .F. ) ;
#269 = ORIENTED_EDGE ( 'NONE', *, *, #310, .T. ) ;
#270 = PRESENTATION_STYLE_ASSIGNMENT (( #28 ) ) ;
#271 = EDGE_LOOP ( 'NONE', ( #280, #202, #23, #165, #152, #200, #151, #289 ) ) ;
#272 = VERTEX_POINT ( 'NONE', #133 ) ;
#273 = VECTOR ( 'NONE', #99, 1000.000000000000000 ) ;
#274 = VECTOR ( 'NONE', #89, 1000.000000000000000 ) ;
#275 = PRODUCT_RELATED_PRODUCT_CATEGORY ( 'part', '', ( #134 ) ) ;
#276 = PRODUCT_DEFINITION_FORMATION_WITH_SPECIFIED_SOURCE ( 'ANY', '', #134, .NOT_KNOWN. ) ;
#277 = VECTOR ( 'NONE', #95, 1000.000000000000000 ) ;
#278 = PRODUCT_DEFINITION ( 'UNKNOWN', '', #276, #146 ) ;
#279 = AXIS2_PLACEMENT_3D ( 'NONE', #22, #20, #19 ) ;
#280 = ORIENTED_EDGE ( 'NONE', *, *, #332, .F. ) ;
#281 =( GEOMETRIC_REPRESENTATION_CONTEXT ( 3 ) GLOBAL_UNCERTAINTY_ASSIGNED_CONTEXT ( ( #196 ) ) GLOBAL_UNIT_ASSIGNED_CONTEXT ( ( #27, #26, #24 ) ) REPRESENTATION_CONTEXT ( 'NONE', 'WORKASPACE' ) );
#282 = MECHANICAL_DESIGN_GEOMETRIC_PRESENTATION_REPRESENTATION (  '', ( #284 ), #281 ) ;
#283 = PRESENTATION_LAYER_ASSIGNMENT (  '', '', ( #284 ) ) ;
#284 = STYLED_ITEM ( 'NONE', ( #270 ), #198 ) ;
#285 =( GEOMETRIC_REPRESENTATION_CONTEXT ( 3 ) GLOBAL_UNCERTAINTY_ASSIGNED_CONTEXT ( ( #11 ) ) GLOBAL_UNIT_ASSIGNED_CONTEXT ( ( #53, #39, #38 ) ) REPRESENTATION_CONTEXT ( 'NONE', 'WORKASPACE' ) );
#286 = CARTESIAN_POINT ( 'NONE',  ( 49.19999999999558300, 39.80000000000054400, 1.500000000000000200 ) ) ;
#287 =( GEOMETRIC_REPRESENTATION_CONTEXT ( 3 ) GLOBAL_UNCERTAINTY_ASSIGNED_CONTEXT ( ( #336 ) ) GLOBAL_UNIT_ASSIGNED_CONTEXT ( ( #47, #45, #44 ) ) REPRESENTATION_CONTEXT ( 'NONE', 'WORKASPACE' ) );
#288 = MECHANICAL_DESIGN_GEOMETRIC_PRESENTATION_REPRESENTATION (  '', ( #292 ), #287 ) ;
#289 = ORIENTED_EDGE ( 'NONE', *, *, #334, .F. ) ;
#290 = PRESENTATION_LAYER_ASSIGNMENT (  '', '', ( #292 ) ) ;
#291 = CARTESIAN_POINT ( 'NONE',  ( 4.800000000000035300, 44.80000000000010400, 1.500000000000000000 ) ) ;
#292 = STYLED_ITEM ( 'NONE', ( #327 ), #337 ) ;
#293 = AXIS2_PLACEMENT_3D ( 'NONE', #59, #56, #55 ) ;
#294 = AXIS2_PLACEMENT_3D ( 'NONE', #67, #64, #63 ) ;
#295 = AXIS2_PLACEMENT_3D ( 'NONE', #118, #116, #114 ) ;
#296 = AXIS2_PLACEMENT_3D ( 'NONE', #150, #142, #141 ) ;
#297 = AXIS2_PLACEMENT_3D ( 'NONE', #128, #127, #126 ) ;
#298 = AXIS2_PLACEMENT_3D ( 'NONE', #156, #148, #147 ) ;
#299 = AXIS2_PLACEMENT_3D ( 'NONE', #163, #155, #154 ) ;
#300 = AXIS2_PLACEMENT_3D ( 'NONE', #291, #162, #161 ) ;
#301 = AXIS2_PLACEMENT_3D ( 'NONE', #177, #169, #168 ) ;
#302 = AXIS2_PLACEMENT_3D ( 'NONE', #181, #175, #172 ) ;
#303 = CARTESIAN_POINT ( 'NONE',  ( 6.938893903907228400E-015, -0.2000000000000005100, 1.500000000000000000 ) ) ;
#304 = AXIS2_PLACEMENT_3D ( 'NONE', #185, #180, #179 ) ;
#305 = AXIS2_PLACEMENT_3D ( 'NONE', #187, #194, #191 ) ;
#306 = AXIS2_PLACEMENT_3D ( 'NONE', #222, #189, #188 ) ;
#307 = AXIS2_PLACEMENT_3D ( 'NONE', #195, #199, #201 ) ;
#308 = CARTESIAN_POINT ( 'NONE',  ( -0.1999999999999953200, 39.80000000000006800, 0.0000000000000000000 ) ) ;
#309 = ORIENTED_EDGE ( 'NONE', *, *, #333, .T. ) ;
#310 = EDGE_CURVE ( 'NONE', #160, #259, #5, .T. ) ;
#311 = EDGE_CURVE ( 'NONE', #259, #140, #236, .T. ) ;
#312 = EDGE_CURVE ( 'NONE', #272, #140, #3, .T. ) ;
#313 = EDGE_CURVE ( 'NONE', #272, #160, #94, .T. ) ;
#314 = EDGE_CURVE ( 'NONE', #140, #227, #111, .T. ) ;
#315 = EDGE_CURVE ( 'NONE', #227, #228, #132, .T. ) ;
#316 = EDGE_CURVE ( 'NONE', #7, #43, #42, .T. ) ;
#317 = EDGE_CURVE ( 'NONE', #43, #31, #106, .T. ) ;
#318 = EDGE_CURVE ( 'NONE', #31, #58, #266, .T. ) ;
#319 = EDGE_CURVE ( 'NONE', #58, #21, #76, .T. ) ;
#320 = EDGE_CURVE ( 'NONE', #21, #272, #173, .T. ) ;
#321 = EDGE_CURVE ( 'NONE', #124, #224, #167, .T. ) ;
#322 = EDGE_CURVE ( 'NONE', #224, #43, #260, .T. ) ;
#323 = EDGE_CURVE ( 'NONE', #224, #244, #82, .T. ) ;
#324 = ORIENTED_EDGE ( 'NONE', *, *, #313, .T. ) ;
#325 = EDGE_CURVE ( 'NONE', #244, #31, #117, .T. ) ;
#326 = EDGE_CURVE ( 'NONE', #244, #93, #49, .T. ) ;
#327 = PRESENTATION_STYLE_ASSIGNMENT (( #50 ) ) ;
#328 = EDGE_CURVE ( 'NONE', #93, #58, #262, .T. ) ;
#329 = EDGE_CURVE ( 'NONE', #93, #72, #243, .T. ) ;
#330 = EDGE_CURVE ( 'NONE', #72, #21, #75, .T. ) ;
#331 = EDGE_CURVE ( 'NONE', #72, #160, #41, .T. ) ;
#332 = EDGE_CURVE ( 'NONE', #259, #228, #80, .T. ) ;
#333 = EDGE_CURVE ( 'NONE', #227, #7, #1, .T. ) ;
#334 = EDGE_CURVE ( 'NONE', #228, #124, #14, .T. ) ;
#335 = EDGE_CURVE ( 'NONE', #124, #7, #197, .T. ) ;
#336 = UNCERTAINTY_MEASURE_WITH_UNIT (LENGTH_MEASURE( 1.000000000000000100E-005 ), #47, 'distance_accuracy_value', 'NONE');
#337 = MANIFOLD_SOLID_BREP ( 'Cut-Extrude2', #257 ) ;
#338 = FACE_OUTER_BOUND ( 'NONE', #123, .T. ) ;
ENDSEC;
END-ISO-10303-21;
